Guitar Finder Bass Drums Piano Vocals

Use any program for 5 minutes    





auto
  Bass Tab Generator With Sound




G|-----4---------------------
D|--------4----------------0-
A|-2-------2-------0---2-----
E|-------------2-------------

Click "Load" to load this above bass tab into memory.
G|-------------------------------------------------------------------------------------------------
D|-------------------------------------2-4-5-4-2-----------------------4-6-----2-4-------------4-7-
A|-----2-4-5-4-2-------2-4-5-4-2---0-4-----------4-----2-4-5-4-2---2-6-----0-4---------2-4-2-6-----
E|-0-4-----------4-0-4-----------4-----------------0-4-----------4-----------------0-4-------------

Copy/clear/paste/load to load above bass blues tab into memory.
You can use transpose (numbers in select) to change into any key.
Or write your own by clicking on the fretboard mouseover numbers.
Or get any bass tab and paste it in text area and click "Play"
----------------------------------------------------------------
The width of this box (65) is 5 over standard size for tab (60).
Too wide (70,80?) for this box is still acceptable on print page
---------1---------2---------3---------4---------5---------6-----
Any notes above 9, click "advance" if next note on same string
---------------------------------
Special Characters: highlight then click "$$" on that string
---------------------------------
"Sixit" will add highlighted Special character to all strings
---------------------------------
"Hold" for chords, enter special character "-" on unused strings
or "Fixit" to even out anything out of sync
---------
"Dupe" will duplicate last 2 lines. 4 will duplicate last 4 etc.
---------
"Sweep" is next space apart.
"quarter" makes notes 2 spaces apart.
"Half" makes notes 4 spaces apart.
"Whole" makes notes 8 spaces apart.
As soon as you figure out the way that works you'll be able
to make playable tabs with exactly correct timing.
---------------------------------
"Clear" will only clear last tab in box
---------------------------------
"UnClear" will bring back the last tab cleared
...this means "Clear" can be used as a "temporary save"
---------------------------------
Anytime you have a tab section you want to save click "save"
you can save as many as you want (number will be shown) and when
you're done click "print" and it will show page.
Use << >> to view previous saves, then "Load" to put back into
memory. (make sure to "save" or "temporary save" whatever is in
this text box before << >> viewing previous, or just click
anything other than "Clear" like... "Fixit" to bring back last
work still in memory)
---------------------------------
You can modify a tab manually directly into this text box then
click "Load" and it will load into program changeable memory.
Or check auto load and it will automatically load when you
leave text area. If you want to put in something longer than
four string lines... make sure auto load is off (unchecked).
You can save anything you type into this text box (Additional
info, lyrics, instructions, Can be any length, html allowed),
Example: You can save and print these instructions.
---------------------------------
If you want your name or a title on the page click "Title"
---------------------------------
"Reset" will clear and reset all, including saves
-----------------------------------------------------------------
Auto-Blues generates completely random blues riffs in any key.
Click any fret level to change key.
If you check the box... it auto-saves it.
Auto-Blues|_|slower|?|faster|Stop
-----------------------------------------------------------------
1 2 3 4 5 6
12345678901234567890123456789012345678901234567890123456789012345
-----------------------------------------------------------------